Click here to return to the Home page... Click here to go to the advanced ukulelerocksMORE! page... Click here to go to the nursery rhyme ukulelerocksRHYMES! page... Click here to find out about the Face Book Group... Click here to follow us on Twitter... Title Bar...
Download
Backing track

Download
Lesson Sheet

 

This Old Man

 

  • Lots of fun to play in tab or chords! Enjoy!

    C             C             F              G7

A -------------|-------------|--0-----------|---------------|-

E -----0-------|-----0-------|--------1--0--|-----0--1--0-1-|-

C -------------|-------------|--------------|--2------------|-

G --0-----0----|--0-----0----|-----0--------|---------------|-

 

    C               C             G7             C  G7 C

A ---------------|---------------|--------------|-------------||

E ---------------|------0-1------|-----------1--|--0----------||

C -----0--0-0-0--|--0-2----------|-----2--2-----|-----2--0----||

G --0------------|----------0----|--0-----------|-------------||

 

 

 

 

If you'd like some help with the lyrics to this well known Nursery Rhyme try the handy picture above!

Or if you'd like a full set of lyrics Click here...

 

 

 

 

 

 

 


 

 

 

Thanks to my lil' friend Jacob for the inspiration to arrange this!
Keep practising with yer Dad pal!

 

 

   © J. Cockshott 2015 : Terms and Conditions