Click here to return to the Home page... Click here to go to the advanced ukulelerocksMORE! page... Click here to go to the nursery rhyme ukulelerocksRHYMES! page... Click here to find out about the Face Book Group... Click here to follow us on Twitter... Title Bar...
Download
Backing track

Download
Lesson Sheet

 

Eastenders Theme Tune

       C                                          F                      Dm                                         F                      G7

A ------------------------0----|-----------------|-----------------------------|--------------------------|-

E ----------0--1--------------|--1----------1--|--1--0----------------------|------0------------------|-

C --0--2----------------------|-----------------|---------2--0--0-----------|--0----------0----2----|-

G ------------------0----------|-----------------|-------------------------0--|----------0--------------|-

 

       C                                          F                      Dm                                         F                      G7     C

A ------------------------0----|-----------------|-----------------------------|-----------------------|--------||-

E ----------0--1--------------|--1----------1--|--1--0----------------------|------0--1-----------|---------||-

C --0--2----------------------|-----------------|---------2--0--0-----------|--0----------0----2--|--0-----||-

G ------------------0----------|-----------------|-------------------------0--|-----------------------|--------||-

 

 

 

Eastenders Tv Logo...

 

 

Natalie is at Parkhill Primary School, Wednesbury. Here is her excellent playing of the tab part to this well known theme song!

 

 

   © J. Cockshott 2015 : Terms and Conditions