Ukulele Rocks! ::==={o |}

Click here to return to the Home page... Click here to go to the advanced ukulelerocksMORE! page... Click here to go to the nursery rhyme ukulelerocksRHYMES! page... Click here to find out about the Face Book Group... Click here to follow us on Twitter... Title Bar...

Download
Backing track

Download
Lesson Sheet

 

Chords needed...

 

'Thank You for My Friends'

 

C                                     F          C

When we're playing in the park

C                   G7         C

Thank you for our friends.

C                                   F              C

When it's cold and wet and dark

C                   G7         C

Thank you for our friends.

F                                  C

When we're going to the fair,

G7                               C                  G7

When we all have sweets to share

C                                  G7                           C             F

Even when they're cross, and they pull my hair...

C                   G7        C

Thank you for my friends.

 

 

C                               F       C

When I'm feeling very sad

C                   G7         C

Thank you for our friends.

C                                   F              C

When I'm feeling cross and bad,

C                   G7         C

Thank you for our friends.

F                                  C

When we're going to the fair,

G7                               C                  G7

When we all have sweets to share

C                                  G7                           C             F

Even when they're cross, and they pull my hair...

C                   G7        C

Thank you for my friends.

C                           F              C

When I have a birthday tea

C                   G7         C

Thank you for our friends.

C                            F           C

When I fall and cut my knee

C                   G7         C

Thank you for our friends...etc.

C                                  F            C

When we play our special games

C                   G7         C

Thank you for our friends.

C                                         F            C

When they scowl and call me names

C                   G7         C

Thank you for our friends...etc.

 


 

 Melody Tab...

 A --3--3--3------|--0--0--------|----------------|-------------:||-

A -----------------|---------------|--0--0---------|-------------:||-

A -----------------|---------------|---------2--2--|--0---------:||-

A -------------0--|----------0----|----------------|-------------:||-

 

 

A --0--0--0------|---------------|----------------|--------------|-

A -------------1--|---------------|--1--1--1-----|--0-----------|-

A -----------------|---------------|------------2--|---------2----|-

A -----------------|--0--0--0----|----------------|-----0--------|-

 

A ----------------------|---------0----|----------------|-------------||-

A ----------------------|--0--0-------|--0--0---------|-------------||-

A --0-0-0-0--2--2-2-|--------------|---------2--2--|--0---------||-

A ----------------------|--------------|-----------------|------------||-

Thank you for my friends...

 

 

 

   © J. Cockshott 2015 : Terms and Conditions