Click here to return to the Home page... Click here to go to the advanced ukulelerocksMORE! page... Click here to go to the nursery rhyme ukulelerocksRHYMES! page... Click here to find out about the Face Book Group... Click here to follow us on Twitter... Title Bar...

Download
Backing track

Download
Lesson Sheet

 

 

Twinkle...

          C                 F      C        F      C        G7     C

A ----------------|--0--0---------|----------------|---------------|-

E ----------------|----------------|--1--1--0--0--|---------------|-

C --0--0---------|----------------|----------------|--2--2--0----|-

G ---------0--0--|---------0-----|----------------|---------------|-

 

 

          C       F         C     G7     C      F        C     G7        

A -----------------|---------------|----------------|---------------|-

E ----------1--1--|--0--0-------|---------1--1--|--0--0--------|-

C -----------------|---------2----|----------------|---------2-----|-

G --0--0---------|---------------|--0--0---------|---------------|-

 

 

 

          C                 F      C        F      C        G7    C

A ----------------|--0--0---------|----------------|---------------||

E ----------------|----------------|--1--1--0--0--|---------------||

C --0--0---------|----------------|----------------|--2--2--0----||

G ---------0--0--|---------0-----|----------------|---------------||

 

 C                      F     C      F      C          G7          C

Twinkle Twinkle little star, how I wonder what you are?

C      F            C         G7      C       F           C       G7  

Up a-bove the stars so high, like a diamond in the sky

 C                      F     C      F      C          G7          C

Twinkle Twinkle little star, how I wonder what you are?

 

 

My friends in Year 4 at St. Johns School in Wednesbury worked very hard at recording their version of this piece.

 

I think they did very well...what do you think? 

 

 

 

 

 

 

Twinkle Twinkle Little Star in Sign Language

 

 

 

  • My new friend Rachel at 'Signs and Sounds' ( www.signsandsoundsuk.com ) has a great singing voice and signs very clearly for people to learn songs like Twinkle Twinkle. Why not have a go?


 

 

   © J. Cockshott 2015 : Terms and Conditions